Song: Speed of Flow tabs

Band: The Rodeo Carburettor

Rating: -1 +1 Views: 664

Speed of Flow - The Rodeo Carburettor tabs




    

INTRO x2
-----------------------------------
--10---10---10---10---10---10------
--11>--11---11---11>--11---11------
-----------------------------------
-----------------------------------
-----------------------------------

--------------------------------
--7--------------9--------------
--8--------------9--------------
--------------------------------
--------------------------------
--------------------------------




    

Amaj      Bmaj
-5---------7----------------------
-5---------7----------------------
-6---------8----------------------
-7---------9----------------------
-7---------9----------------------
-5---------7----------------------

--bass fill

Amaj      Bmaj     C#m       C#m
-5---------7--------4------4--4------
-5---------7--------5------4--5------
-6---------8--------6------6--6------
-7---------9--------6------6--6------
-7---------9--------4------4--4------
-5---------7--------4------4--4------

Amaj      Bmaj     C#m       C#m
-x---------x--------x---------x-----
-x---------x--------x---------x-----
-6---------8--------x---------x-----
-7---------9--------11--------11----
-7---------9--------11--------11----
-5---------7--------9---------9-----


-------------------------------------
--10---10---10---9---9---9---9---9---
--9----9----9----9---9---9---9---9---
-------------------------------------
-------------------------------------
-------------------------------------

-------------------------------------
--10---10---10---9---9---9---9---9---
--9----9----9----9---9---9---9---9---
-------------------------------------
-------------------------------------
-------------------------------------

-------------------------------------
--10---10---10---9---9---9---9---9---
--9----9----9----9---9---9---9---9---
-------------------------------------
-------------------------------------
-------------------------------------

-------------------------------------
--8----8----8----9---9---9---9---9---
--9----9----9----9---9---9---9---9---
-------------------------------------
-------------------------------------
-------------------------------------

Amaj      Bmaj
-5---------7----------------------
-5---------7----------------------
-6---------8----------------------
-7---------9----------------------
-7---------9----------------------
-5---------7----------------------

--bass fill


Amaj      Bmaj     C#m       C#m
-x---------x--------x---------x-----
-x---------x--------x---------x-----
-6---------8--------x---------x-----
-7---------9--------11--------11----
-7---------9--------11--------11----
-5---------7--------9---------9-----


Amaj      Bmaj     C#m       C#m
-x---------x--------x---------x-----
-x---------x--------x---------x-----
-6---------8--------x---------x-----
-7---------9--------11--------11----
-7---------9--------11--------11----
-5---------7--------9---------9-----


There is a guitar solo somewhere in there its not too difficult. This is a very rough draft please leave comments and we can update with some needed corrections.

The song is composed of these parts and a solo. You should be able to figure out the rest!

Thanks!

Close panel

Help Rate This Tab by Voting Up or Down

Vote Up Vote Down
Rating: -1 +1

Other Songs Like This

x

Copyright © 2017